Iki lo diapakne.. Hari ma ilham, jelasin nih tulisan.. lu bisa mainin kan?

View previous topic View next topic Go down

Iki lo diapakne.. Hari ma ilham, jelasin nih tulisan.. lu bisa mainin kan?

Post by Kesan Pertamax on Tue 3 Jun - 15:05

Tab Gitar Van Halen-Panama

\=slide down h=hammer on ~=vibrato
HHH=Harmonics /=slide up ()=bend to fret in brackets
[]=tap fret in brackets with pick hand
Intro:
e--------------------------------|-------------------------|
B-9----10-----7------9------10-7-|-7-----8-----7-----------|
G-9-----9-----8------9-------9-8-|-7-----7-----8-----------|
D-9-----9-----9------9-------9-9-|-7-----7-----9-----7*WB*-|
A---X-X---X-X---X-X----X-X-------|---X-X---X-X-------O*WB*-|
E--------------------------------|-------------------------|

e--------------------------------|-------------------------|
B-9----10-----7------9------10-7-|-7-----8-----7-----------|
G-9-----9-----8------9-------9-8-|-7-----7-----8-----------|
D-9-----9-----9------9-------9-9-|-7-----7-----9-----\X\X\-|
A---X-X---X-X---X-X----X-X-------|---X-X---X-X-------\X\X\-|
E--------------------------------|-------------------------|

Pre-Verse:
e-----------------------------------------------|
B-5------------------4-5-4--4\2--2-2------------|
G-6------------------4-4-4--4\2--2-2------------|
D-6------------------4-4-4--4\2--2-2--4--h4~~~~-|
A--------4-4-4-4-4-4----------------------------|
E-----------------------------------------------|

|HHHHHHHHHHHHHHHHHHHHHHH|
e---------------------------------------------|--5-----5-----5----5-----5-|
B-5--4---4-5--------4-5-4--4\2--2-2-----------|----4---------4----4-----4-|
G-6----6------------4-4-4--4\2--2-2---------4-|------4-----4-4----4-----4-|
D-6-----------------4-4-4--4\2--2-2---------4-|---------------------------|
A-------------------------------------O-O-O-2-|-This-is-the-"super-riff"--|
E---------------------------------------------|---------------------------|

Chorus:
e-------------------------|------------------------|------------------------|
B--------3-X---3----------|--------3-X---3---------|--------3-X---3---------|
G-----2--2-X-2-2-2--------|-----2--2-X-2-2-2-------|-----2--2-X-2-2-2-------|
D-2---2--2-X-2-2-2--------|-2---2--2-X-2-2-2-------|-2---2--2-X-2-2-2-------|
A-2---2----X-2---2--------|-2---2----X-2---2-------|-2---2----X-2---2-------|
E-O-O--------------3/5\3~~|-O-O--------------3/5\3~|-O-O--------------3/5\3~|

e-------------------------|
B--------3-X---3----------|
G-----2--2-X-2-2-2--------|
D-2---2--2-X-2-2-2--------|
A-2---2----X-2---2--------|
E-O-O--------------3/5\3~~|



Verse:
e----------------------------------------------------------------------------------|
B-3----------------------------10-5-8------------------8-8-10----------------------|
G-2-----------------------------9-6-7------------------7-7-9----------O-O-2--------|
D-2---2-------------------------9-7-7------------------7-7-9----------O-O-2-\X\X\--|
A-----2-------------------------7---5------------------5-5-7--------------2-\X\X\--|
E-----O------O-O-O-O-O-------------------------------------------------------------|



Bridge:
e------------------------|-----------------|---------------------------| -B------O-----O-----O-----|-7---------------|---------------------------|
G-5------3-----3-----3---|-6---------------|-\-------------------------|
D-4--------4-----4-----4-|-6---------------|-\-------------------------|
A-4----------------------|-4---------------|----2/9h10p9----7\2~~------|
E-2----------------------|-----------------|-------------10------------|

e-------------------|
B-------------------|
G-------------------|
D-------------------|
A-2/9h10p9----7\3~~-|
E----------10-------|

Play "super riff"

Play Chorus

Play Verse

Solo:
E---------------|--------7-------7-7-----------------|
B---------------|------7---------7-7----*WB*---------|
G---------------|-9(11)-----9(11)------9(11)-9(11)~~-|
D---------------|------------------------------------|
A-3~-O----O-----|------------------------------------|
E------3~---3~~-|------------------------------------|

e---------------|------------------|
B---------------|------------------|
G-6h9-[11]p-6h9-|-9(11)-9(11)~~~~~-|
D-play-this-----|------------------|
A-part-5-times--|------------------|
E---------------|------------------|


This Part is Hard to Explain, but here it goes. bend up the string in brackets and hold the bend while tapping with your pick hand until you see this sign ;; e----------------------------------------------------------------------|
B----------------------------------------------------------------------|
G-9(11)--[14]--[12]--[14]--[16]--[14]--[12]-;;-7h9*WB*---9(11)p7h9p7~~-|
D----------------------------------------------------------------------|
A----------------------------------------------------------------------|
E----------------------------------------------------------------------|

e---------------------------------|
B---------------------------------|
G-7(9)-7-----7(9)~----------------|
D--------9-7-------9-8-7----------|
A------------------------9-8-7----|
E------------------------------10-|

This is the really slow part with the engine sound
e-----------------------------------------------------------------|
B-----------------------------------------------------------------|
G-----------------------------------------------------------------|
D-----------------------------------------------------------------|
A--9h10p9----7(9)------9h10p9----9~----------9h10p9---9~----------|
E---------10-------7~---------10-----10-------------10---10-10/12-|


e---------------------|
B---------------------|
G-------------4-------| -D-------------3-------|
A-9h10p9------3-------|
E--------10---1-------|

The rest is just more of the verse and chorus stuff, you can do the rest, i'm to lazy.

VVVVVVVVVVVVVVVVVVVVVVVVVV VVVVVVVVVVV HHHHHH HHHHHHHHHHHHHHHHHHHHHHHHHH
VVVVVVVVVVVVVVVVVVVVVVVVVV VVVVVVVV HHHHHH HHHHHHHHHHHHHHHHHHHHHHHHHH
VVVV VVV HHH HHH
VVVVVVVVVVVVVVVVVVVVVVVV VVV HHH HHHHHHHHHHHHHHHHHHHHHHHH
VVVVVVVVVVVVVVVVVVVVVVVV VVV HHH HHHHHHHHHHHHHHHHHHHHHHHH
VVVV VVV HHH HHH
VVVVVVVVVVVVVVVVVVVVVV VVV HHHHHHHHHHHHHHHHHHHHHHHHHHHHHHHHH
VVVVVVVVVVVVVVVVVVVVVVVVV HHHHHHHHHHHHHHHHHHHHHHHHHHHHHHHHH
VVVVV HHH HHH
VVV HHH HHH
V HHH HHH
HHH HHH
HHH
HHH
HHH
HHH
HHH
H

Ana sing ngerti artine iki?


Last edited by Kesan Pertamax on Tue 3 Jun - 15:36; edited 1 time in total
avatar
Kesan Pertamax
kejar setoran
kejar setoran

Number of posts : 221
Age : 31
Location : SPBU
Registration date : 2008-04-14

View user profile

Back to top Go down

Re: Iki lo diapakne.. Hari ma ilham, jelasin nih tulisan.. lu bisa mainin kan?

Post by BabyDave on Tue 3 Jun - 15:27

roaming!!!!!!!!!!!!!!!!!!!! pake bahasa lingua franka dong!!!!!!!!!!!!!!!!!!!!1
avatar
BabyDave
pengangguran
pengangguran

Number of posts : 323
Age : 26
Location : rock street
Registration date : 2008-04-14

View user profile

Back to top Go down

Re: Iki lo diapakne.. Hari ma ilham, jelasin nih tulisan.. lu bisa mainin kan?

Post by alcove@lt.15 on Wed 4 Jun - 10:36

wah itu susah dijelaskan dengan kata2..
intinya sih gini....

e|----------| ---->senar 1
B|----------| ---->senar 2
G|----------| ---->senar 3
D|----------| ---->senar 4
A|----------| ---->senar 5
E|----------| ---->senar 6

angka disitu berarti pada fret/kolom nmr brp yang hrs lo pencet dan lo petik
contoh:
e|-4-------|
B|--5------|
G|---6-----|
D|----7----|
A|-----8---|
E|------9--|

berarti berurutan lo mencet dan metik:
senar 1 fret/kolom4, senar 2 fret 5, senar 3 fret 6, senar 4 fret 7, senar 5 fret 8 dan senar 6 fret 9...

kalo angkanya sejajar, berarti dipencet dan dipetik bareng....
selamat mencoba...

cheers
avatar
alcove@lt.15
kejar setoran
kejar setoran

Male
Number of posts : 60
Age : 31
Location : gd. 16 (-1) lantai
Registration date : 2008-04-24

View user profile

Back to top Go down

Re: Iki lo diapakne.. Hari ma ilham, jelasin nih tulisan.. lu bisa mainin kan?

Post by Sponsored content


Sponsored content


Back to top Go down

View previous topic View next topic Back to top

- Similar topics

 
Permissions in this forum:
You cannot reply to topics in this forum